ISO-10303-21;
HEADER;
/* Generated by software containing ST-Developer
 * from STEP Tools, Inc. (www.steptools.com) 
 */
/* OPTION: using custom renumber hook */

FILE_DESCRIPTION(
/* description */ ('STEP AP242 Edition 2',
'CAx-IF Rec.Pracs.---Representation and Presentation of Product Manufa
cturing Information (PMI)---4.0---2014-10-13',
'CAx-IF Rec.Pracs.---3D Tessellated Geometry---0.4---2014-09-14','2;1',
'CAx-IF Rec.Pracs.---User Defined Attributes---1.5---2016-08-15'),
/* implementation_level */ '2;1');

FILE_NAME(
/* name */ '693e3dd94c2b12436d309cac',
/* time_stamp */ '2025-12-14T04:32:26Z',
/* author */ (''),
/* organization */ (''),
/* preprocessor_version */ 'ST-DEVELOPER v20',
/* originating_system */ 'ONSHAPE BY PTC INC, 1.208',
/* authorisation */ '  ');

FILE_SCHEMA (('AP242_MANAGED_MODEL_BASED_3D_ENGINEERING_MIM_LF { 1 0 10303 442 3 1 4 }'));
ENDSEC;

DATA;
#10=SHAPE_REPRESENTATION_RELATIONSHIP('','',#311,#11);
#11=ADVANCED_BREP_SHAPE_REPRESENTATION('',(#309),#491);
#12=CYLINDRICAL_SURFACE('',#329,0.002);
#13=CIRCLE('',#323,0.002);
#14=CIRCLE('',#330,0.002);
#15=ORIENTED_EDGE('',*,*,#91,.F.);
#16=ORIENTED_EDGE('',*,*,#92,.T.);
#17=ORIENTED_EDGE('',*,*,#93,.T.);
#18=ORIENTED_EDGE('',*,*,#94,.F.);
#19=ORIENTED_EDGE('',*,*,#95,.T.);
#20=ORIENTED_EDGE('',*,*,#96,.F.);
#21=ORIENTED_EDGE('',*,*,#97,.F.);
#22=ORIENTED_EDGE('',*,*,#98,.T.);
#23=ORIENTED_EDGE('',*,*,#99,.F.);
#24=ORIENTED_EDGE('',*,*,#100,.T.);
#25=ORIENTED_EDGE('',*,*,#101,.T.);
#26=ORIENTED_EDGE('',*,*,#102,.F.);
#27=ORIENTED_EDGE('',*,*,#103,.T.);
#28=ORIENTED_EDGE('',*,*,#104,.T.);
#29=ORIENTED_EDGE('',*,*,#93,.F.);
#30=ORIENTED_EDGE('',*,*,#105,.T.);
#31=ORIENTED_EDGE('',*,*,#91,.T.);
#32=ORIENTED_EDGE('',*,*,#106,.T.);
#33=ORIENTED_EDGE('',*,*,#107,.F.);
#34=ORIENTED_EDGE('',*,*,#108,.T.);
#35=ORIENTED_EDGE('',*,*,#107,.T.);
#36=ORIENTED_EDGE('',*,*,#109,.T.);
#37=ORIENTED_EDGE('',*,*,#103,.F.);
#38=ORIENTED_EDGE('',*,*,#110,.T.);
#39=ORIENTED_EDGE('',*,*,#96,.T.);
#40=ORIENTED_EDGE('',*,*,#111,.T.);
#41=ORIENTED_EDGE('',*,*,#112,.F.);
#42=ORIENTED_EDGE('',*,*,#113,.F.);
#43=ORIENTED_EDGE('',*,*,#92,.F.);
#44=ORIENTED_EDGE('',*,*,#108,.F.);
#45=ORIENTED_EDGE('',*,*,#110,.F.);
#46=ORIENTED_EDGE('',*,*,#105,.F.);
#47=ORIENTED_EDGE('',*,*,#106,.F.);
#48=ORIENTED_EDGE('',*,*,#98,.F.);
#49=ORIENTED_EDGE('',*,*,#114,.T.);
#50=ORIENTED_EDGE('',*,*,#115,.T.);
#51=ORIENTED_EDGE('',*,*,#116,.T.);
#52=ORIENTED_EDGE('',*,*,#94,.T.);
#53=ORIENTED_EDGE('',*,*,#104,.F.);
#54=ORIENTED_EDGE('',*,*,#109,.F.);
#55=ORIENTED_EDGE('',*,*,#114,.F.);
#56=ORIENTED_EDGE('',*,*,#97,.T.);
#57=ORIENTED_EDGE('',*,*,#113,.T.);
#58=ORIENTED_EDGE('',*,*,#117,.F.);
#59=ORIENTED_EDGE('',*,*,#116,.F.);
#60=ORIENTED_EDGE('',*,*,#118,.T.);
#61=ORIENTED_EDGE('',*,*,#111,.F.);
#62=ORIENTED_EDGE('',*,*,#95,.F.);
#63=ORIENTED_EDGE('',*,*,#119,.F.);
#64=ORIENTED_EDGE('',*,*,#115,.F.);
#65=ORIENTED_EDGE('',*,*,#117,.T.);
#66=ORIENTED_EDGE('',*,*,#112,.T.);
#67=ORIENTED_EDGE('',*,*,#118,.F.);
#68=ORIENTED_EDGE('',*,*,#120,.F.);
#69=ORIENTED_EDGE('',*,*,#121,.T.);
#70=ORIENTED_EDGE('',*,*,#99,.T.);
#71=ORIENTED_EDGE('',*,*,#122,.F.);
#72=ORIENTED_EDGE('',*,*,#102,.T.);
#73=ORIENTED_EDGE('',*,*,#123,.F.);
#74=ORIENTED_EDGE('',*,*,#124,.F.);
#75=ORIENTED_EDGE('',*,*,#122,.T.);
#76=ORIENTED_EDGE('',*,*,#101,.F.);
#77=ORIENTED_EDGE('',*,*,#125,.T.);
#78=ORIENTED_EDGE('',*,*,#126,.T.);
#79=ORIENTED_EDGE('',*,*,#123,.T.);
#80=ORIENTED_EDGE('',*,*,#126,.F.);
#81=ORIENTED_EDGE('',*,*,#127,.T.);
#82=ORIENTED_EDGE('',*,*,#120,.T.);
#83=ORIENTED_EDGE('',*,*,#124,.T.);
#84=ORIENTED_EDGE('',*,*,#121,.F.);
#85=ORIENTED_EDGE('',*,*,#127,.F.);
#86=ORIENTED_EDGE('',*,*,#125,.F.);
#87=ORIENTED_EDGE('',*,*,#100,.F.);
#88=ORIENTED_EDGE('',*,*,#128,.F.);
#89=ORIENTED_EDGE('',*,*,#119,.T.);
#90=ORIENTED_EDGE('',*,*,#128,.T.);
#91=EDGE_CURVE('',#129,#130,#155,.T.);
#92=EDGE_CURVE('',#129,#131,#156,.T.);
#93=EDGE_CURVE('',#131,#132,#157,.T.);
#94=EDGE_CURVE('',#133,#132,#158,.T.);
#95=EDGE_CURVE('',#133,#134,#159,.T.);
#96=EDGE_CURVE('',#135,#134,#160,.T.);
#97=EDGE_CURVE('',#136,#135,#161,.T.);
#98=EDGE_CURVE('',#136,#130,#162,.T.);
#99=EDGE_CURVE('',#137,#138,#163,.T.);
#100=EDGE_CURVE('',#137,#139,#164,.T.);
#101=EDGE_CURVE('',#139,#140,#165,.T.);
#102=EDGE_CURVE('',#138,#140,#166,.T.);
#103=EDGE_CURVE('',#141,#142,#167,.T.);
#104=EDGE_CURVE('',#142,#132,#168,.T.);
#105=EDGE_CURVE('',#131,#141,#169,.T.);
#106=EDGE_CURVE('',#130,#143,#170,.T.);
#107=EDGE_CURVE('',#144,#143,#171,.T.);
#108=EDGE_CURVE('',#144,#129,#172,.T.);
#109=EDGE_CURVE('',#143,#142,#173,.T.);
#110=EDGE_CURVE('',#141,#144,#174,.T.);
#111=EDGE_CURVE('',#134,#145,#175,.T.);
#112=EDGE_CURVE('',#146,#145,#176,.T.);
#113=EDGE_CURVE('',#135,#146,#177,.T.);
#114=EDGE_CURVE('',#136,#147,#178,.T.);
#115=EDGE_CURVE('',#147,#148,#179,.T.);
#116=EDGE_CURVE('',#148,#133,#180,.T.);
#117=EDGE_CURVE('',#147,#146,#181,.T.);
#118=EDGE_CURVE('',#148,#145,#182,.T.);
#119=EDGE_CURVE('',#149,#149,#13,.T.);
#120=EDGE_CURVE('',#150,#151,#183,.T.);
#121=EDGE_CURVE('',#150,#137,#184,.F.);
#122=EDGE_CURVE('',#151,#138,#185,.T.);
#123=EDGE_CURVE('',#152,#140,#186,.T.);
#124=EDGE_CURVE('',#151,#152,#187,.T.);
#125=EDGE_CURVE('',#139,#153,#188,.F.);
#126=EDGE_CURVE('',#153,#152,#189,.T.);
#127=EDGE_CURVE('',#153,#150,#190,.T.);
#128=EDGE_CURVE('',#154,#154,#14,.T.);
#129=VERTEX_POINT('',#411);
#130=VERTEX_POINT('',#412);
#131=VERTEX_POINT('',#414);
#132=VERTEX_POINT('',#416);
#133=VERTEX_POINT('',#418);
#134=VERTEX_POINT('',#420);
#135=VERTEX_POINT('',#422);
#136=VERTEX_POINT('',#424);
#137=VERTEX_POINT('',#427);
#138=VERTEX_POINT('',#428);
#139=VERTEX_POINT('',#430);
#140=VERTEX_POINT('',#432);
#141=VERTEX_POINT('',#436);
#142=VERTEX_POINT('',#437);
#143=VERTEX_POINT('',#442);
#144=VERTEX_POINT('',#444);
#145=VERTEX_POINT('',#451);
#146=VERTEX_POINT('',#453);
#147=VERTEX_POINT('',#458);
#148=VERTEX_POINT('',#460);
#149=VERTEX_POINT('',#468);
#150=VERTEX_POINT('',#471);
#151=VERTEX_POINT('',#472);
#152=VERTEX_POINT('',#477);
#153=VERTEX_POINT('',#481);
#154=VERTEX_POINT('',#488);
#155=LINE('',#410,#191);
#156=LINE('',#413,#192);
#157=LINE('',#415,#193);
#158=LINE('',#417,#194);
#159=LINE('',#419,#195);
#160=LINE('',#421,#196);
#161=LINE('',#423,#197);
#162=LINE('',#425,#198);
#163=LINE('',#426,#199);
#164=LINE('',#429,#200);
#165=LINE('',#431,#201);
#166=LINE('',#433,#202);
#167=LINE('',#435,#203);
#168=LINE('',#438,#204);
#169=LINE('',#439,#205);
#170=LINE('',#441,#206);
#171=LINE('',#443,#207);
#172=LINE('',#445,#208);
#173=LINE('',#447,#209);
#174=LINE('',#448,#210);
#175=LINE('',#450,#211);
#176=LINE('',#452,#212);
#177=LINE('',#454,#213);
#178=LINE('',#457,#214);
#179=LINE('',#459,#215);
#180=LINE('',#461,#216);
#181=LINE('',#463,#217);
#182=LINE('',#465,#218);
#183=LINE('',#470,#219);
#184=LINE('',#473,#220);
#185=LINE('',#474,#221);
#186=LINE('',#476,#222);
#187=LINE('',#478,#223);
#188=LINE('',#480,#224);
#189=LINE('',#482,#225);
#190=LINE('',#484,#226);
#191=VECTOR('',#336,1.);
#192=VECTOR('',#337,1.);
#193=VECTOR('',#338,1.);
#194=VECTOR('',#339,1.);
#195=VECTOR('',#340,1.);
#196=VECTOR('',#341,1.);
#197=VECTOR('',#342,1.);
#198=VECTOR('',#343,1.);
#199=VECTOR('',#344,1.);
#200=VECTOR('',#345,1.);
#201=VECTOR('',#346,1.);
#202=VECTOR('',#347,1.);
#203=VECTOR('',#350,1.);
#204=VECTOR('',#351,1.);
#205=VECTOR('',#352,1.);
#206=VECTOR('',#355,1.);
#207=VECTOR('',#356,1.);
#208=VECTOR('',#357,1.);
#209=VECTOR('',#360,1.);
#210=VECTOR('',#361,1.);
#211=VECTOR('',#364,1.);
#212=VECTOR('',#365,1.);
#213=VECTOR('',#366,1.);
#214=VECTOR('',#371,1.);
#215=VECTOR('',#372,1.);
#216=VECTOR('',#373,1.);
#217=VECTOR('',#376,1.);
#218=VECTOR('',#379,1.);
#219=VECTOR('',#386,1.);
#220=VECTOR('',#387,1.);
#221=VECTOR('',#388,1.);
#222=VECTOR('',#391,1.);
#223=VECTOR('',#392,1.);
#224=VECTOR('',#395,1.);
#225=VECTOR('',#396,1.);
#226=VECTOR('',#399,1.);
#227=EDGE_LOOP('',(#15,#16,#17,#18,#19,#20,#21,#22));
#228=EDGE_LOOP('',(#23,#24,#25,#26));
#229=EDGE_LOOP('',(#27,#28,#29,#30));
#230=EDGE_LOOP('',(#31,#32,#33,#34));
#231=EDGE_LOOP('',(#35,#36,#37,#38));
#232=EDGE_LOOP('',(#39,#40,#41,#42));
#233=EDGE_LOOP('',(#43,#44,#45,#46));
#234=EDGE_LOOP('',(#47,#48,#49,#50,#51,#52,#53,#54));
#235=EDGE_LOOP('',(#55,#56,#57,#58));
#236=EDGE_LOOP('',(#59,#60,#61,#62));
#237=EDGE_LOOP('',(#63));
#238=EDGE_LOOP('',(#64,#65,#66,#67));
#239=EDGE_LOOP('',(#68,#69,#70,#71));
#240=EDGE_LOOP('',(#72,#73,#74,#75));
#241=EDGE_LOOP('',(#76,#77,#78,#79));
#242=EDGE_LOOP('',(#80,#81,#82,#83));
#243=EDGE_LOOP('',(#84,#85,#86,#87));
#244=EDGE_LOOP('',(#88));
#245=EDGE_LOOP('',(#89));
#246=EDGE_LOOP('',(#90));
#247=FACE_BOUND('',#227,.T.);
#248=FACE_BOUND('',#228,.T.);
#249=FACE_BOUND('',#229,.T.);
#250=FACE_BOUND('',#230,.T.);
#251=FACE_BOUND('',#231,.T.);
#252=FACE_BOUND('',#232,.T.);
#253=FACE_BOUND('',#233,.T.);
#254=FACE_BOUND('',#234,.T.);
#255=FACE_BOUND('',#235,.T.);
#256=FACE_BOUND('',#236,.T.);
#257=FACE_BOUND('',#237,.T.);
#258=FACE_BOUND('',#238,.T.);
#259=FACE_BOUND('',#239,.T.);
#260=FACE_BOUND('',#240,.T.);
#261=FACE_BOUND('',#241,.T.);
#262=FACE_BOUND('',#242,.T.);
#263=FACE_BOUND('',#243,.T.);
#264=FACE_BOUND('',#244,.T.);
#265=FACE_BOUND('',#245,.T.);
#266=FACE_BOUND('',#246,.T.);
#267=PLANE('',#313);
#268=PLANE('',#314);
#269=PLANE('',#315);
#270=PLANE('',#316);
#271=PLANE('',#317);
#272=PLANE('',#318);
#273=PLANE('',#319);
#274=PLANE('',#320);
#275=PLANE('',#321);
#276=PLANE('',#322);
#277=PLANE('',#324);
#278=PLANE('',#325);
#279=PLANE('',#326);
#280=PLANE('',#327);
#281=PLANE('',#328);
#282=PLANE('',#331);
#283=ADVANCED_FACE('',(#247,#248),#267,.T.);
#284=ADVANCED_FACE('',(#249),#268,.T.);
#285=ADVANCED_FACE('',(#250),#269,.F.);
#286=ADVANCED_FACE('',(#251),#270,.F.);
#287=ADVANCED_FACE('',(#252),#271,.F.);
#288=ADVANCED_FACE('',(#253),#272,.T.);
#289=ADVANCED_FACE('',(#254),#273,.T.);
#290=ADVANCED_FACE('',(#255),#274,.T.);
#291=ADVANCED_FACE('',(#256),#275,.T.);
#292=ADVANCED_FACE('',(#257,#258),#276,.T.);
#293=ADVANCED_FACE('',(#259),#277,.F.);
#294=ADVANCED_FACE('',(#260),#278,.F.);
#295=ADVANCED_FACE('',(#261),#279,.T.);
#296=ADVANCED_FACE('',(#262),#280,.T.);
#297=ADVANCED_FACE('',(#263),#281,.F.);
#298=ADVANCED_FACE('',(#264,#265),#12,.F.);
#299=ADVANCED_FACE('',(#266),#282,.T.);
#300=CLOSED_SHELL('',(#283,#284,#285,#286,#287,#288,#289,#290,#291,#292,
#293,#294,#295,#296,#297,#298,#299));
#301=STYLED_ITEM('',(#302),#309);
#302=PRESENTATION_STYLE_ASSIGNMENT((#303));
#303=SURFACE_STYLE_USAGE(.BOTH.,#304);
#304=SURFACE_SIDE_STYLE('',(#305));
#305=SURFACE_STYLE_FILL_AREA(#306);
#306=FILL_AREA_STYLE('',(#307));
#307=FILL_AREA_STYLE_COLOUR('',#308);
#308=COLOUR_RGB('',0.615686274509804,0.811764705882353,0.929411764705882);
#309=MANIFOLD_SOLID_BREP('slider',#300);
#310=SHAPE_DEFINITION_REPRESENTATION(#496,#311);
#311=SHAPE_REPRESENTATION('slider',(#312),#491);
#312=AXIS2_PLACEMENT_3D('',#408,#332,#333);
#313=AXIS2_PLACEMENT_3D('',#409,#334,#335);
#314=AXIS2_PLACEMENT_3D('',#434,#348,#349);
#315=AXIS2_PLACEMENT_3D('',#440,#353,#354);
#316=AXIS2_PLACEMENT_3D('',#446,#358,#359);
#317=AXIS2_PLACEMENT_3D('',#449,#362,#363);
#318=AXIS2_PLACEMENT_3D('',#455,#367,#368);
#319=AXIS2_PLACEMENT_3D('',#456,#369,#370);
#320=AXIS2_PLACEMENT_3D('',#462,#374,#375);
#321=AXIS2_PLACEMENT_3D('',#464,#377,#378);
#322=AXIS2_PLACEMENT_3D('',#466,#380,#381);
#323=AXIS2_PLACEMENT_3D('',#467,#382,#383);
#324=AXIS2_PLACEMENT_3D('',#469,#384,#385);
#325=AXIS2_PLACEMENT_3D('',#475,#389,#390);
#326=AXIS2_PLACEMENT_3D('',#479,#393,#394);
#327=AXIS2_PLACEMENT_3D('',#483,#397,#398);
#328=AXIS2_PLACEMENT_3D('',#485,#400,#401);
#329=AXIS2_PLACEMENT_3D('',#486,#402,#403);
#330=AXIS2_PLACEMENT_3D('',#487,#404,#405);
#331=AXIS2_PLACEMENT_3D('',#489,#406,#407);
#332=DIRECTION('',(0.,0.,1.));
#333=DIRECTION('',(1.,0.,0.));
#334=DIRECTION('',(-1.,0.,0.));
#335=DIRECTION('',(0.,0.,1.));
#336=DIRECTION('',(0.,0.,-1.));
#337=DIRECTION('',(0.,0.90630778703665,0.422618261740699));
#338=DIRECTION('',(0.,0.,-1.));
#339=DIRECTION('',(0.,-1.,0.));
#340=DIRECTION('',(0.,0.,-1.));
#341=DIRECTION('',(0.,1.,0.));
#342=DIRECTION('',(0.,0.,-1.));
#343=DIRECTION('',(0.,1.,0.));
#344=DIRECTION('',(0.,0.,-1.));
#345=DIRECTION('',(0.,-1.,0.));
#346=DIRECTION('',(0.,0.,-1.));
#347=DIRECTION('',(0.,-1.,0.));
#348=DIRECTION('',(0.,1.,0.));
#349=DIRECTION('',(0.,0.,1.));
#350=DIRECTION('',(0.,0.,-1.));
#351=DIRECTION('',(-1.,0.,0.));
#352=DIRECTION('',(1.,0.,0.));
#353=DIRECTION('',(0.,1.,0.));
#354=DIRECTION('',(0.,0.,1.));
#355=DIRECTION('',(1.,0.,0.));
#356=DIRECTION('',(0.,0.,-1.));
#357=DIRECTION('',(-1.,0.,0.));
#358=DIRECTION('',(-1.,-2.94020928131662E-16,0.));
#359=DIRECTION('',(2.94020928131662E-16,-1.,0.));
#360=DIRECTION('',(-2.94020928131662E-16,1.,0.));
#361=DIRECTION('',(2.66473456717469E-16,-0.90630778703665,-0.422618261740699));
#362=DIRECTION('',(0.,0.,1.));
#363=DIRECTION('',(1.,0.,0.));
#364=DIRECTION('',(1.,0.,0.));
#365=DIRECTION('',(-2.94020928131662E-16,1.,0.));
#366=DIRECTION('',(1.,0.,0.));
#367=DIRECTION('',(0.,-0.422618261740699,0.90630778703665));
#368=DIRECTION('',(-1.,0.,0.));
#369=DIRECTION('',(0.,0.,1.));
#370=DIRECTION('',(1.,0.,0.));
#371=DIRECTION('',(1.,0.,0.));
#372=DIRECTION('',(-2.94020928131662E-16,1.,0.));
#373=DIRECTION('',(-1.,0.,0.));
#374=DIRECTION('',(0.,-1.,0.));
#375=DIRECTION('',(1.,0.,0.));
#376=DIRECTION('',(0.,0.,-1.));
#377=DIRECTION('',(0.,1.,0.));
#378=DIRECTION('',(-1.,0.,0.));
#379=DIRECTION('',(0.,0.,-1.));
#380=DIRECTION('',(1.,2.94020928131662E-16,0.));
#381=DIRECTION('',(-2.94020928131662E-16,1.,0.));
#382=DIRECTION('',(1.,2.94020928131662E-16,0.));
#383=DIRECTION('',(-2.94020928131662E-16,1.,0.));
#384=DIRECTION('',(0.,-1.,0.));
#385=DIRECTION('',(0.,0.,-1.));
#386=DIRECTION('',(0.,0.,-1.));
#387=DIRECTION('',(-0.5,0.,-0.866025403784439));
#388=DIRECTION('',(1.,0.,0.));
#389=DIRECTION('',(0.,0.,1.));
#390=DIRECTION('',(1.,0.,0.));
#391=DIRECTION('',(1.,0.,0.));
#392=DIRECTION('',(0.,-1.,0.));
#393=DIRECTION('',(0.,-1.,0.));
#394=DIRECTION('',(0.,0.,-1.));
#395=DIRECTION('',(0.5,0.,0.866025403784439));
#396=DIRECTION('',(0.,0.,-1.));
#397=DIRECTION('',(-1.,0.,0.));
#398=DIRECTION('',(0.,-1.,0.));
#399=DIRECTION('',(0.,1.,0.));
#400=DIRECTION('',(0.866025403784439,0.,-0.5));
#401=DIRECTION('',(0.,-1.,0.));
#402=DIRECTION('',(1.,2.94020928131662E-16,0.));
#403=DIRECTION('',(-2.94020928131662E-16,1.,0.));
#404=DIRECTION('',(1.,2.94020928131662E-16,0.));
#405=DIRECTION('',(-2.94020928131662E-16,1.,0.));
#406=DIRECTION('',(1.,2.94020928131662E-16,0.));
#407=DIRECTION('',(-2.94020928131662E-16,1.,0.));
#408=CARTESIAN_POINT('',(0.,0.,0.));
#409=CARTESIAN_POINT('',(0.,0.001475,0.01));
#410=CARTESIAN_POINT('',(0.,0.,0.01));
#411=CARTESIAN_POINT('',(0.,0.,0.008));
#412=CARTESIAN_POINT('',(0.,0.,0.0069));
#413=CARTESIAN_POINT('',(0.,0.0019776003052628,0.00892217016711371));
#414=CARTESIAN_POINT('',(0.,0.00295,0.00937560759155725));
#415=CARTESIAN_POINT('',(0.,0.00295,0.01));
#416=CARTESIAN_POINT('',(0.,0.00295,0.0069));
#417=CARTESIAN_POINT('',(0.,0.00365,0.0069));
#418=CARTESIAN_POINT('',(0.,0.00365,0.0069));
#419=CARTESIAN_POINT('',(0.,0.00365,0.01));
#420=CARTESIAN_POINT('',(0.,0.00365,0.));
#421=CARTESIAN_POINT('',(0.,0.001475,0.));
#422=CARTESIAN_POINT('',(0.,-0.0007,0.));
#423=CARTESIAN_POINT('',(0.,-0.0007,0.01));
#424=CARTESIAN_POINT('',(0.,-0.0007,0.0069));
#425=CARTESIAN_POINT('',(0.,-0.0007,0.0069));
#426=CARTESIAN_POINT('',(0.,0.00245,0.0031));
#427=CARTESIAN_POINT('',(0.,0.00245,0.0041));
#428=CARTESIAN_POINT('',(0.,0.00245,0.0021));
#429=CARTESIAN_POINT('',(0.,0.001475,0.0041));
#430=CARTESIAN_POINT('',(0.,0.0005,0.0041));
#431=CARTESIAN_POINT('',(0.,0.0005,0.0031));
#432=CARTESIAN_POINT('',(0.,0.0005,0.0021));
#433=CARTESIAN_POINT('',(0.,0.001475,0.0021));
#434=CARTESIAN_POINT('',(0.00185,0.00295,0.01));
#435=CARTESIAN_POINT('',(0.0037,0.00295,0.01));
#436=CARTESIAN_POINT('',(0.0037,0.00295,0.00937560759155725));
#437=CARTESIAN_POINT('',(0.0037,0.00295,0.0069));
#438=CARTESIAN_POINT('',(0.00185,0.00295,0.0069));
#439=CARTESIAN_POINT('',(0.00185,0.00295,0.00937560759155725));
#440=CARTESIAN_POINT('',(0.00185,0.,0.01));
#441=CARTESIAN_POINT('',(0.00185,0.,0.0069));
#442=CARTESIAN_POINT('',(0.0037,0.,0.0069));
#443=CARTESIAN_POINT('',(0.0037,0.,0.01));
#444=CARTESIAN_POINT('',(0.0037,0.,0.008));
#445=CARTESIAN_POINT('',(0.,0.,0.008));
#446=CARTESIAN_POINT('',(0.0037,0.001475,0.01));
#447=CARTESIAN_POINT('',(0.0037,0.001475,0.0069));
#448=CARTESIAN_POINT('',(0.0037,0.00428901384101912,0.01));
#449=CARTESIAN_POINT('',(0.00185,0.001475,0.));
#450=CARTESIAN_POINT('',(0.00185,0.00365,0.));
#451=CARTESIAN_POINT('',(0.00495,0.00365,0.));
#452=CARTESIAN_POINT('',(0.00495,0.001475,0.));
#453=CARTESIAN_POINT('',(0.00495,-0.0007,0.));
#454=CARTESIAN_POINT('',(0.00185,-0.0007,0.));
#455=CARTESIAN_POINT('',(0.00185,0.00428901384101912,0.01));
#456=CARTESIAN_POINT('',(0.00185,-0.0007,0.0069));
#457=CARTESIAN_POINT('',(0.00185,-0.0007,0.0069));
#458=CARTESIAN_POINT('',(0.00495,-0.0007,0.0069));
#459=CARTESIAN_POINT('',(0.00495,0.001475,0.0069));
#460=CARTESIAN_POINT('',(0.00495,0.00365,0.0069));
#461=CARTESIAN_POINT('',(0.00185,0.00365,0.0069));
#462=CARTESIAN_POINT('',(0.00185,-0.0007,0.004));
#463=CARTESIAN_POINT('',(0.00495,-0.0007,0.01));
#464=CARTESIAN_POINT('',(0.00185,0.00365,0.00468780379577862));
#465=CARTESIAN_POINT('',(0.00495,0.00365,0.01));
#466=CARTESIAN_POINT('',(0.00495,0.001475,0.00468780379577862));
#467=CARTESIAN_POINT('',(0.00495,0.001475,0.0035));
#468=CARTESIAN_POINT('',(0.00495,0.003475,0.0035));
#469=CARTESIAN_POINT('',(-0.001,0.00245,0.0031));
#470=CARTESIAN_POINT('',(-0.001,0.00245,0.0031));
#471=CARTESIAN_POINT('',(-0.001,0.00245,0.00236794919243113));
#472=CARTESIAN_POINT('',(-0.001,0.00245,0.0021));
#473=CARTESIAN_POINT('',(0.,0.00245,0.0041));
#474=CARTESIAN_POINT('',(-0.001,0.00245,0.0021));
#475=CARTESIAN_POINT('',(-0.001,0.001475,0.0021));
#476=CARTESIAN_POINT('',(-0.001,0.0005,0.0021));
#477=CARTESIAN_POINT('',(-0.001,0.0005,0.0021));
#478=CARTESIAN_POINT('',(-0.001,0.001475,0.0021));
#479=CARTESIAN_POINT('',(-0.001,0.0005,0.0031));
#480=CARTESIAN_POINT('',(-0.00068301270189222,0.0005,0.00291698729810778));
#481=CARTESIAN_POINT('',(-0.001,0.0005,0.00236794919243113));
#482=CARTESIAN_POINT('',(-0.001,0.0005,0.0031));
#483=CARTESIAN_POINT('',(-0.001,0.001475,0.00468780379577862));
#484=CARTESIAN_POINT('',(-0.001,0.001475,0.00236794919243113));
#485=CARTESIAN_POINT('',(0.,0.001475,0.0041));
#486=CARTESIAN_POINT('',(0.00145,0.001475,0.0035));
#487=CARTESIAN_POINT('',(0.00145,0.001475,0.0035));
#488=CARTESIAN_POINT('',(0.00145,0.003475,0.0035));
#489=CARTESIAN_POINT('',(0.00145,0.001475,0.00345));
#490=MECHANICAL_DESIGN_GEOMETRIC_PRESENTATION_REPRESENTATION('',(#301),
#491);
#491=(
GEOMETRIC_REPRESENTATION_CONTEXT(3)
GLOBAL_UNCERTAINTY_ASSIGNED_CONTEXT((#492))
GLOBAL_UNIT_ASSIGNED_CONTEXT((#495,#494,#493))
REPRESENTATION_CONTEXT('slider','TOP_LEVEL_ASSEMBLY_PART')
);
#492=UNCERTAINTY_MEASURE_WITH_UNIT(LENGTH_MEASURE(1.E-8),#495,
'DISTANCE_ACCURACY_VALUE','Maximum Tolerance applied to model');
#493=(
NAMED_UNIT(*)
SI_UNIT($,.STERADIAN.)
SOLID_ANGLE_UNIT()
);
#494=(
NAMED_UNIT(*)
PLANE_ANGLE_UNIT()
SI_UNIT($,.RADIAN.)
);
#495=(
LENGTH_UNIT()
NAMED_UNIT(*)
SI_UNIT($,.METRE.)
);
#496=PRODUCT_DEFINITION_SHAPE('','',#497);
#497=PRODUCT_DEFINITION('','',#499,#498);
#498=PRODUCT_DEFINITION_CONTEXT('',#505,'design');
#499=PRODUCT_DEFINITION_FORMATION_WITH_SPECIFIED_SOURCE('','',#501,
 .NOT_KNOWN.);
#500=PRODUCT_RELATED_PRODUCT_CATEGORY('','',(#501));
#501=PRODUCT('slider','slider','slider',(#503));
#502=PRODUCT_CATEGORY('','');
#503=PRODUCT_CONTEXT('',#505,'mechanical');
#504=APPLICATION_PROTOCOL_DEFINITION('international standard',
'ap242_managed_model_based_3d_engineering',2020,#505);
#505=APPLICATION_CONTEXT('managed model based 3d engineering');
ENDSEC;
END-ISO-10303-21;
